25 HORAS..

Ver el tema anterior Ver el tema siguiente Ir abajo

25 HORAS..

Mensaje  DLF25 el Lun 14 Feb 2011, 17:44

D A
Puede ser que algunos te recuerden bien
G
que algunos te recuerden mal
D A
que algunos no recuerden nada.

O tal vez no vivir para agradecer
o no tener una razón
pero cantar igual.

(Utilizar un Slide, para las partes en que hay "/" )

e|--------9--8-7--10---------2h3p2--5------------------------3p2-0--0-2--|
B|--9/12--10-9-8---10/12/10--3---3---5/7/5--14-13-12--15h17--3---3-3-----|
G|---------------------------2---2----------14-13-12---------2-----------|
D|------------------------------------------14-13-12---------------------|
A|-----------------------------------------------------------------------|
E|-----------------------------------------------------------------------|

Esto en realidad es con 2 guitarras.


e|----------------10----------------5------------------------3p2-0--0-2--|
B|--9/12-----------10/12/10----------5/7/5--------3----------3---3-3-----|
G|-----------------------------------------------------------3-----------|
D|-----------------------------------------------------------------------|
A|-----------------------------------------------------------------------|
E|-----------------------------------------------------------------------|

e|--------9--8-7-------------2h3p2---------------------------------------|
B|--------10-9-8-------------3---3----------14-13-12--15h17--------------|
G|---------------------------2---2----------14-13-12---------------------|
D|------------------------------------------14-13-12---------------------|
A|-----------------------------------------------------------------------|
E|-----------------------------------------------------------------------|


Puede ser que algunos no se acuerden bien,
que algunos se acuerdan muy mal,
que algunos no se acuerden de nada y puede ser.

O tal vez no vivir para agradecer
o no tener una razón
pero cantar igual.

G D
Querer morir así vagando en soledad
A G D
con lo poco que nos queda y nada más.

A G D
Vas perdiendo la mirada y ves que viven de recuerdos.
A G D
Son muertos sin entender que el fuego se lleva adentro.
G D
Con 24 horas hoy vivo un día,
A G D
con 25 viviré eterna vida.


Solo: D A G D A
G D A G D
Punteo: Pentatónica de B Menor


Puede ser que plante esta bandera acá,
que deje de pensar en ti,
no quiero pensar más.

O tal vez que viva muchos años más,
tratando de buscar la Fe
que no pude encontrar.

La piel curtida y yo fumando en soledad
aunque sé que mucho queda por andar.

Vas perdiendo la mirada y ves que viven de recuerdos.
Son muerto sin entender que el fuego se lleva adentro.

Con 24 horas hoy vivo un día,
con 25 viviré toda la vida.

Con 24 horas hoy vivo un día,
con 25 viviré toda la vida.

Em G
Cuando la noche cae y el diablo se hace espina,
Em G A D
esperando que nos vengan a buscar.

avatar
DLF25
Nadie

Cantidad de envíos : 6
Fecha de inscripción : 14/02/2011
Edad : 24

Ver perfil de usuario

Volver arriba Ir abajo

Re: 25 HORAS..

Mensaje  El 25 Stone el Lun 21 Mar 2011, 11:08

Me encanta este tema

Muy bien DLF por los acordes

_________________

avatar
El 25 Stone
Con el Rock en las Venas

Cantidad de envíos : 261
Fecha de inscripción : 26/12/2008
Edad : 30
Localización : Merlo

Ver perfil de usuario

Volver arriba Ir abajo

Ver el tema anterior Ver el tema siguiente Volver arriba

- Temas similares

 
Permisos de este foro:
No puedes responder a temas en este foro.