Dame Mas.

Ir abajo

Dame Mas.

Mensaje  DLF25 el Lun 14 Feb 2011, 17:49

A5 E5 A5
Dame mas, aunque no quiera tener nada con vos
E5 A5
Dame mas, reina de finos tugurios dame mas
E5 A5
Dame mas, que importa si el muerto me lo quedo yo
E5 A5
Dame mas, aunque no sepas muy bien por donde voy

A7
D5
Chica de mis ratos sucios
A5
tu rush me da le da brillo a mi ciudad
D5 A5
Bajando la carretera, mi refugio sera tu salvedad
E5 A5
Dame mas, que importa si el muerto queda aca

Marcos:
1|---10-12-12-12-12------------------17-17---17-17-----------|
2|---12s14-14-14-14s12-10--10-15----17v-----17v--------------|
3|-----------------------11-------------------------16-14----|
4|-----------------------------------------------------------|
5|-----------------------------------------------------------|
6|-----------------------------------------------------------|


1|-----------------12v-12v-----------------------------------|
2|-----------------12v-12v-10--10s12-10-10-------10----10----|
3|------------14-------------11--------------9s11--11s9------|
4|-------14-16-----------------------------------------------|
5|--14s16----------------------------------------------------|
6|-----------------------------------------------------------|


1|-------------12-14v-12-------------------------------------|
2|-12v-10-----------------12v-10-----------------------------|
3|--------12s13-------------------11-9-----------------------|
4|------------------------------------11-9-7-7/--------------|
5|------------------------------------------9----------------|
6|-----------------------------------------------------------|


E5 A5
Dame mas, che p...a olvide lo que paso
E5 A5
Dame mas, aunque tu mama no sepa bien quien sos
E5 A5
Dame mas, toda la noche te venderas por mi
E5 A5
Dame mas, follando con el bebe de Rosmary

A7
D5 A5
Seras la nena malvada o el hada que el padre si violo
D5 A5
reina de los corazones de tipos que caeran por vos
E5 A5
Dame mas, antes de que rindas la noche te espero

A7
D5
Chica de mis vicios sucios
A5
tu rush le da brillo a mi ciudad
D5 A5
Bajando la carretera, mi refugio sera tu salvacion
E5 A5
Dame mas, que importa si el muerto queda aca

A7
E5 A5
Dame mas, antes que rindas la noche te espero
E5 A5
Dame mas, reina de los corazones
E5 A5
Dame mas, chica de mis vicios sucios
E5 A5
Dame mas, que importa si el muerto queda aca
E5
Dame mas..





avatar
DLF25
Nadie

Cantidad de envíos : 6
Fecha de inscripción : 14/02/2011
Edad : 25

Ver perfil de usuario

Volver arriba Ir abajo

Volver arriba

- Temas similares

 
Permisos de este foro:
No puedes responder a temas en este foro.